A Guest Post by PIPPA

So Ella said she would bring me food if I (Pippa) wrote her blog post in the six minutes before midnight. So since I have no time I shall write fast.

I learned the harry potter theme uke tab for my ukulele today.  This is the kind of uke I have. Ukes are easy to learn and fun to play and youtube uke hunt and uke tabs are great websites for chords and tabs and advice.

A---0--3-2-0--7--5--2--0--3--2----0-------
E-0----------------------------3----0-----
C-----------------------------------------
G-----------------------------------------

A---0--3-2-0--7--10-9-8---8-7-6---6--3----
E-0---------------------9-------4---------
C-----------------------------------------
G-----------------------------------------

Here’s the snack Ella made me:

When I asked why Ella put blueberries on top of the peanut butter and jelly, she said that just plain jam was too boring and that the blueberries would make jelly “in my mouth.”

Advertisements

Leave a Reply

Fill in your details below or click an icon to log in:

WordPress.com Logo

You are commenting using your WordPress.com account. Log Out / Change )

Twitter picture

You are commenting using your Twitter account. Log Out / Change )

Facebook photo

You are commenting using your Facebook account. Log Out / Change )

Google+ photo

You are commenting using your Google+ account. Log Out / Change )

Connecting to %s